Song name
# A B C D E F G H I J K L M N O P Q R S T U V W X Y Z

Dayanidhi Rao - Gaaunga Main tab

h - hammer on/pull off
s - slide



E |--------2-------|----------------------------------------------------|
B |-----------3----|--3h-5--------------------------------3-----2-------|
G |-----2----------|----------------------------------------------------|
D |--0-------------|----------------------------------------------------|
A |----------------|----------------------------------------------------|
E |----------------|----------------------------------------------------|


----------------------------|----------------|--------2-------|
--3-----------------2-------|--2-----3--5----|-----------3----|
-----------------------4----|----------------|-----2----------|
----------------------------|----------------|--0-------------|
----------------------------|----------------|----------------|
----------------------------|----------------|----------------|


----------------------------------------------------|
--3h-5--------------------------------3-----2-------|
----------------------------------------------------|
----------------------------------------------------|
----------------------------------------------------|
----------------------------------------------------|


----------------------------|----------------|
--------------------2-------|--2-------------|
-----------------------4----|-----4--2-------|
----------------------------|----------------|
----------------------------|----------------|
----------------------------|----------------|


----------------------------------------------------|
--------------------------3-----------2-------------|
--2s-4----------------------------------------------|
----------------------------------------------------|
----------------------------------------------------|
----------------------------------------------------|


----------------------------|-------|-------|
--------3-------------------|--3----|-------|
--------------------2s-4----|-------|-------|
----------------------------|-------|-------|
----------------------------|-------|-------|
----------------------------|-------|-------|


----------------------------------------------------|
--------------------------3-----------2-------------|
--2s-4----------------------------------------------|
----------------------------------------------------|
----------------------------------------------------|
----------------------------------------------------|


----------------------------|-------|-------|--------2-------|
--------3s-5-----------2----|--3----|-------|-----------3----|
----------------------------|-------|-------|-----2----------|
----------------------------|-------|-------|--0-------------|
----------------------------|-------|-------|----------------|
----------------------------|-------|-------|----------------|


----------------------------------------------------|
--3h-5--------------------------------3-----2-------|
----------------------------------------------------|
----------------------------------------------------|
----------------------------------------------------|
----------------------------------------------------|


----------------------------|----------------|--------2-------|
--3-----------------2-------|--2-----3--5----|-----------3----|
-----------------------4----|----------------|-----2----------|
----------------------------|----------------|--0-------------|
----------------------------|----------------|----------------|
----------------------------|----------------|----------------|


----------------------------------------------------|
--3h-5--------------------------------3-----2-------|
----------------------------------------------------|
----------------------------------------------------|
----------------------------------------------------|
----------------------------------------------------|


----------------------------|----------------|
--------------------2-------|--2-------------|
-----------------------4----|-----4--2-------|
----------------------------|----------------|
----------------------------|----------------|
----------------------------|----------------|


----------------------------------------------------|
--------------------------3-----------2-------------|
--2s-4----------------------------------------------|
----------------------------------------------------|
----------------------------------------------------|
----------------------------------------------------|


----------------------------|-------|-------|
--------3-------------------|--3----|-------|
--------------------2s-4----|-------|-------|
----------------------------|-------|-------|
----------------------------|-------|-------|
----------------------------|-------|-------|


----------------------------------------------------|
--------------------------3-----------2-------------|
--2s-4----------------------------------------------|
----------------------------------------------------|
----------------------------------------------------|
----------------------------------------------------|


----------------------------|-------|-------||
--------3s-5-----------2----|--3----|-------||
----------------------------|-------|-------||
----------------------------|-------|-------||
----------------------------|-------|-------||
----------------------------|-------|-------||
Tap to rate this tab
# A B C D E F G H I J K L M N O P Q R S T U V W X Y Z