Song name
# A B C D E F G H I J K L M N O P Q R S T U V W X Y Z

Daycare Swindlers - 31st And M tab

                                31st and M

                        By: The Daycare Swindlers


(Intro/Pre-Chorus)

guitar 1

   G                                     A                A
E--3-------------------------------------5----------------5---|
B--3-------------------------------------5----------------5---|
G--4-------------------------------------6----------------6---|
D--5-------------------------------------7----------------7---|
A--5---5-5-5-5-5-5-5-5-5-5-5-5-5-5-5-5---7---7-7-7-7-7-7--7---|
E--3---3-3-3-3-3-3-3-3-3-3-3-3-3-3-3-3---5---5-5-5-5-5-5--5---|
       * * * * * * * * * * * * * * * *       * * * * * *

guitar 2

   G                              A
E--3-------------------3----------5------------5--|
B--3---------------3-------3------5--------5------|
G--4-----------4---------4---4----6------6---6----|
D--5---------5---5---5------------7---------------|
A-------------------------------------------------|
E-------------------------------------------------|


(Verse)

guitar 2

      D            G            Bm           A
E---------------x--3--x--3---x--2--x--2---x--5--x--5---|
B--x--7--x--7---x--3--x--3---x--3--x--3---x--5--x--5---|
G--x--7--x--7---x--4--x--4---x--4--x--4---x--6--x--6---|
D--x--7--x--7---x--5--x--5----------------x--7--x--7---|
A--x--5--x--5------------------------------------------|
E------------------------------------------------------|


      D            G            Bm           A
E---------------x--3--x--3---x--2--x--2---x--5--7--5---|
B--x--7--x--7---x--3--x--3---x--3--x--3---x--5--5--5---|
G--x--7--x--7---x--4--x--4---x--4--x--4---x--6--6--6---|
D--x--7--x--7---x--5--x--5----------------x--7--x--7---|
A--x--5--x--5------------------------------------------|
E------------------------------------------------------|


(Pre-Chorus)

   G                                     A                A
E--3-------------------------------------5----------------5---|
B--3-------------------------------------5----------------5---|
G--4-------------------------------------6----------------6---|
D--5-------------------------------------7----------------7---|
A--5---5-5-5-5-5-5-5-5-5-5-5-5-5-5-5-5---7---7-7-7-7-7-7--7---|
E--3---3-3-3-3-3-3-3-3-3-3-3-3-3-3-3-3---5---5-5-5-5-5-5--5---|
      * * * * * * * * * * * * * * * *       * * * * * *


guitar 2

   G                              A
E--3-------------------3----------5------------5--|
B--3---------------3-------3------5--------5------|
G--4-----------4---------4---4----6------6---6----|
D--5---------5---5---5------------7---------------|
A-------------------------------------------------|
E-------------------------------------------------|


(Chorus)

guitar 1

   D           B           G           A
E---------------------------------------------------|
B---------------------------------------------------|
G--7---7-7-7---4---4-4-4----------------------------|
D--7---7-7-7---4---4-4-4---5---5-5-5---7---7-7-7----|    4x
A--5---5-5-5---2---2-2-2---5---5-5-5---7---7-7-7----|
E--------------------------3---3-3-3---5---5-5-5----|


guitar 2

same as guitar 1, but play this
on the 3rd time...


   D           B           G           A
E---------------------------------------------------|
B---------------------------------------------------|
G--7---7-7-7---4---4-4-4----------------------------|
D--x---x-x-x---x---x-x-x---5---5-5-5---7---7-7-7----|
A--5---5-5-5---2---2-2-2---x---x-x-x---x---x-x-x----|
E--------------------------3---3-3-3---5---5-5-5----|


...and this on the
   fourth time.

   D           B           G               A
E------------------------------------------------------------|
B------------------------------------------------------------|
G--7---7-7-7---4---4-4-4---12---12-12-12---14-14---14-14-14--|
D--7---7-7-7---4---4-4-4---x----x--x--x----x--x----x--x--x---|
A--5---5-5-5---2---2-2-2---10---10-10-10---12-12---14-14-14--|
E------------------------------------------------------------|
Tap to rate this tab
# A B C D E F G H I J K L M N O P Q R S T U V W X Y Z