Guitaretab - guitar tabs
Song name
# A B C D E F G H I J K L M N O P Q R S T U V W X Y Z

Dayglo Abortions - Ronald Mcraygun tab

-------------------------------------------------------------------------------
Ronald Mcraygun - Dayglo Abortions
Feed Us A Fetus
-------------------------------------------------------------------------------
Tabbed by: axeslash
Email: holmzito@yahoo.com

Tuning: Standard

e|-----------------------------------------------------------------------------|
B|-----------------------------------------------------------------------------|
G|-----------------4-----3-----------------------------------------4-----3-----|
D|-----------------4--4--3--3--4--5-5-5-5--4--5-5-5-5--4--5-5-5-5--4--4--3--3--|
A|-----------------2--4--1--3--4--5-5-5-5--4--5-5-5-5--4--5-5-5-5--2--4--1--3--|
E|--------------------2-----1--2--3-3-3-3--2--3-3-3-3--2--3-3-3-3-----2-----1--|

e|-------------------------------------------------|
B|-------------------------------------------------|
G|-------------------------------------4-----3-----|
D|-4--5-5-5-5--4--5-5-5-5--4--5-5-5-5--4--4--3--3--|
A|-4--5-5-5-5--4--5-5-5-5--4--5-5-5-5--2--4--1--3--|
E|-2--3-3-3-3--2--3-3-3-3--2--3-3-3-3-----2-----1--| x3

e|-------------------------------------------------|
B|-------------------------------------------------|
G|-------------------------------------4-----3-----|
D|-4--5-5-5-5--4--5-5-5-5--4--5-5-5-5--4--4--3--3--|
A|-4--5-5-5-5--4--5-5-5-5--4--5-5-5-5--2--4--1--3--|
E|-2--3-3-3-3--2--3-3-3-3--2--3-3-3-3-----2-----1--| x4
  [X--X-X-X-X--X--X-X-X-X--X--X-X-X-X]

e|-------------------------------------------|
B|-------------------------------------------|
G|-------------------------------------------|
D|-9--------8--------4--5-5-5-5--4--5-5-5-5--|
A|-9--------8--------4--5-5-5-5--4--5-5-5-5--|
E|-7--------6--------2--3-3-3-3--2--3-3-3-3--| x3
[ Tab from: http://www.guitaretab.com/d/dayglo-abortions/110839.html ]
e|-------------------------------------------------------------------|
B|-------------------------------------------------------------------|
G|-------------------------------------------------------4-----3-----|
D|-9--------8--------4--5-5-5-5--4--5-5-5-5--4--5-5-5-5--4--4--3--3--|
A|-9--------8--------4--5-5-5-5--4--5-5-5-5--4--5-5-5-5--2--4--1--3--|
E|-7--------6--------2--3-3-3-3--2--3-3-3-3--2--3-3-3-3-----2-----1--|

e|-------------------------------------------------|
B|-------------------------------------------------|
G|-------------------------------------4-----3-----|
D|-4--5-5-5-5--4--5-5-5-5--4--5-5-5-5--4--4--3--3--|
A|-4--5-5-5-5--4--5-5-5-5--4--5-5-5-5--2--4--1--3--|
E|-2--3-3-3-3--2--3-3-3-3--2--3-3-3-3-----2-----1--| x4

e|-------------------------------------------------|
B|-------------------------------------------------|
G|-------------------------------------4-----3-----|
D|-4--5-5-5-5--4--5-5-5-5--4--5-5-5-5--4--4--3--3--|
A|-4--5-5-5-5--4--5-5-5-5--4--5-5-5-5--2--4--1--3--|
E|-2--3-3-3-3--2--3-3-3-3--2--3-3-3-3-----2-----1--| x4
  [X--X-X-X-X--X--X-X-X-X--X--X-X-X-X]

e|-------------------------------------------|
B|-------------------------------------------|
G|-------------------------------------------|
D|-9--------8--------4--5-5-5-5--4--5-5-5-5--|
A|-9--------8--------4--5-5-5-5--4--5-5-5-5--|
E|-7--------6--------2--3-3-3-3--2--3-3-3-3--| x3

e|-------------------------------------------------------------------|
B|-------------------------------------------------------------------|
G|-------------------------------------------------------4-----3-----|
D|-9--------8--------4--5-5-5-5--4--5-5-5-5--4--5-5-5-5--4--4--3--3--|
A|-9--------8--------4--5-5-5-5--4--5-5-5-5--4--5-5-5-5--2--4--1--3--|
E|-7--------6--------2--3-3-3-3--2--3-3-3-3--2--3-3-3-3-----2-----1--|

e|-------------------------------------------------|
B|-------------------------------------------------|
G|-------------------------------------4-----3-----|
D|-4--5-5-5-5--4--5-5-5-5--4--5-5-5-5--4--4--3--3--|
A|-4--5-5-5-5--4--5-5-5-5--4--5-5-5-5--2--4--1--3--|
E|-2--3-3-3-3--2--3-3-3-3--2--3-3-3-3-----2-----1--| x4

e|----------------------------|
B|----------------------------|
G|-4-----3-----4-----3--------|
D|-4--4--3--3--4--4--3--3--5--|
A|-2--4--1--3--2--4--1--3--5--|
E|----2-----1-----2-----1--3--|


| /  slide up
| \  slide down
| h  hammer-on
| p  pull-off
| ~  vibrato
| +  harmonic
| x  Mute note
===============================================================================
Related for Ronald Mcraygun tab
Advertisement will be closed in 10 seconds