Song name
# A B C D E F G H I J K L M N O P Q R S T U V W X Y Z

Dayglo Abortions - Stupid Songs tab

First tab ever. listen to the song toget the order. its prett much the same thing over 
over.it is accurate. im just missing the solo.
  feel fre to comment or improve

-------------------------------------------------------            --------|
-------------------------------------------------------            --------|
-------------------------------------------------------           ---------|
-2-222222----5-555555----7-777777-------5-6-7--5-6-7---            ---9----|
-2-222222----5-555555----7-777777-------5-6-7--5-6-7---            ---9----|
-0-000000----3-333333----5-555555-------3-4-5--3-4-5---            ---7----|
   ......      ......      ......

-------------------------------------------------------|
-------------------------------------------------------|
-22-5-4-3--22-----------22-5-4-3---5-6-7--5-6-7--------|
-22-5-4-3--22--5-4-3----22-5-4-3---5-6-7--5-6-7--------|
-00-3-2-1--00--5-4-3----00-3-2-1---3-4-5--3-4-5--------|
---------------3-2-1-----------------------------------|
Tap to rate this tab
 
# A B C D E F G H I J K L M N O P Q R S T U V W X Y Z