Song name
# A B C D E F G H I J K L M N O P Q R S T U V W X Y Z

Dayglo Abortions - Swallow The Pill tab

from corporate whores

riff 1
|--------------------------------------------------------|
|--------------------------------------------------------|
|--------------------------------------------------------|
|-7p5p0-7p5p0-7p5p0-7p5p0-8--7p5p0-7p5p0-7p5p0-7p5p0-8-8-|
|-------------------------6--------------------------6-6-|
|--------------------------------------------------------|


riff 2
|---------------------------------------------|
|---------------------------------------------|
|---------------------------------------------|
|---------------------------------------------|
|-3p2p0-4--4-3p2p0-4--4-3p2p0-4--4-3p2p0-5--5-|
|-------2--2-------2--2-------2--2-------3--3-|


riff 3
|---------------------------------------|
|---------------------------------------|
|---------------------------------------|
|--------5------88--5-88--5-88--5-77--5-|
|-7------3------66--3-66--3-66--3-55--3-|
|-5-------------------------------------|
Tap to rate this tab
# A B C D E F G H I J K L M N O P Q R S T U V W X Y Z