Song name
# A B C D E F G H I J K L M N O P Q R S T U V W X Y Z

Dayglo Abortions - Stroke All Day tab

from corporate whores

riff 1
|-------------------------------------------------------|
|-------------------------------------------------------|
|-------------------------------------------------------|
|-------------------------------------------------------|
|-2-4-5-2-3-2---2-4-5-3-2-3---2-4-5-2-3-2---2-4-5-5-4-3-|
|-0-2-3---------0-2-3---------0-2-3---------0-2-3-------|


riff 2
|-------------------------------------------------------------|
|-------------------------------------------------------------|
|-------------------------------------------------------------|
|----------4-5-4----------5-4-5----------4-5-4----------7-5-4-|
|----------2-3-2----------3-2-3----------2-3-2----------5-3-2-|
|-22222222-------22222222-------22222222-------22222222-------|


riff 3                                            end 1          end 2
|-------------------------------------------------|-------------|--------------|
|-------------------------------------------------|-------------|--------------|
|-4-44-44---------2-22-22---------4-44-44---------|-------------|--------------|
|-2-22-22-5-55-55-0-00-00-4-44-44-2-22-22-5-55-55-|-77777-77777-|--------------|
|---------3-33-33---------2-22-22---------3-33-33-|-55555-55555-|----------5---|
|-------------------------------------------------|-------------|-00000000-3---|


riff 4
|-------------------------------|---------------------------------|
|-------------------------------|---------------------------------|
|-------------------------------|---------------------------------|
|-------------------------------|-----------------444444444444----|
|-7-8-7-777777-2-22-22-22222222-|-5-55-55-4-44-44-222222222222----|
|-5-6-5-555555-0-00-00-00000000-|-3-33-33-2-22-22--------------32-|
Tap to rate this tab
# A B C D E F G H I J K L M N O P Q R S T U V W X Y Z