Song name
# A B C D E F G H I J K L M N O P Q R S T U V W X Y Z

Dayglo Abortions - Sea Of Shit tab

from corporate whores

riff 1
|---------------|------------------|
|---------------|------------------|
|---------------|------------------|
|-99------------|------------------|
|-77-7710-99-99-|------------------|
|----55-8-77-77-|-8777777787777777-|


riff 2
|------------------|
|------------------|
|------------------|
|------------------|
|-7-7-7777-4-44-44-|
|-5-5-5555-2-22-22-|


riff 3
|-----------------|
|-----------------|
|-----------------|
|-7-77-77-7-7-----|
|-5-55-55-5-5-6-7-|
|-------------4-5-|
Tap to rate this tab
 
# A B C D E F G H I J K L M N O P Q R S T U V W X Y Z