Song name
# A B C D E F G H I J K L M N O P Q R S T U V W X Y Z

Dayglo Abortions - Jerrys Retards tab

from corporate whores

riff 1
|---------------------------------|
|---------------------------------|
|---------------------------------|
|---------3p2p0-------------4--4--|
|-2-0-3-2-------3--2--5--5--2--2--|
|-0-------------------3--3--------|


riff 2
|------------------------------------|
|------------------------------------|
|----------4-------------------------|
|----2--4--2--2-3-4------------------|
|-5--0--2-----0-1-2-22222222-2-1-0---|
|-3--------------------------------3-|


riff 3
|-------------------------------------------------------|
|-------------------------------------------------------|
|-------------------------------------------------------|
|-------------------------------------------------------|
|-4-44-4--4-44-4--4-44-4--4-44-45-7---------------------|
|-2-22-20-2-22-20-2-22-20-2-22-23-5---------------------|
Tap to rate this tab
 
# A B C D E F G H I J K L M N O P Q R S T U V W X Y Z