Song name
# A B C D E F G H I J K L M N O P Q R S T U V W X Y Z

Dayglo Abortions - Fob tab

from corporate whores

riff 1
|-----------------------------------------------------------|----------|
|-----------------------------------------------------------|----------|
|-----------------------------------------------------------|----------|
|-----------------------------------------------------------|----------|
|---------------------222-111-000-------2--2---------2--2---|-2--------|
|-000-333-222-111-000-------------1--123----32-1--123----32-|-0--------|


riff 2
|----------------|----------|
|----------------|----------|
|----------------|----------|
|----------------|-5--------|
|-4-5--7-8-88-88-|-3--5-4---|
|-2-3--5-6-66-66-|----3-2---|


riff 3
|-------------------------------------------------------------------------|
|-------------------------------------------------------------------------|
|-------------------------------------------------------------------------|
|-------------------------------------------------------------------------|
|-5-4------6-5------9-8-----10-9------9-8------7-6------9-8------5-4------|
|-3-2-0000-5-4-0000-7-6-0000-8-7-0000-7-6-0000-5-4-0000-7-6-0000-3-2-0000-|
Tap to rate this tab
 
# A B C D E F G H I J K L M N O P Q R S T U V W X Y Z