Song name
# A B C D E F G H I J K L M N O P Q R S T U V W X Y Z

Dayglo Abortions - Corporate Whores tab

from corporate whores

intro:
|-------------------------------|
|-------------------------------|
|-------------------------------|
|-2------5------2---6---5---4---|
|-0------3------0---4---3---2---|
|-------------------------------|


riff 1
|-----------------------------------------|
|-----------------------------------------|
|-------1p0---2-222--222------------------|
|-2--2------1-0-000--000-----1111---------|
|-0--0-------------------0000----1111-----|
|------------------------------------3333-|


riff 2               part 2
|--------------------|----------------------------------------------------------------------------|
|--------------------|----------------------------------------------------------------------------|
|--------------------|----------------------------------------------------------------------------|
|-2--2----------3333-|----------------------------------------------------------------------------|
|-0--0--222233331111-|-5--5---------------5--5---------------5--5---------------5--5----------6666|
|-------00001111-----|-3--3--000033335555-3--3--000033335555-3--3--000033335555-3--3--000033334444|


outro
|------------------------------------------------|
|------------------------------------------------|
|-------1p0---2--2--1p0---2--2--1p0-------2-2----|
|-2--2------1-0--0------1-0--0------1-5-5-0-0-2--|
|-0--0--------------------------------3-3-----0--|
|------------------------------------------------|
Tap to rate this tab
# A B C D E F G H I J K L M N O P Q R S T U V W X Y Z