Song name
# A B C D E F G H I J K L M N O P Q R S T U V W X Y Z

Dayglo Abortions - Chalk One Up tab

from death race 2000

riff 1
|-----------------------------------------|---------------------------------|
|-----------------------------------------|---------------------------------|
|-4---5-----------------------------------|-4---5---------------------------|
|-2---3---4---5-4-------------4---5-4-----|-2---3---4---5-4-------------4---|
|---------2---3-2-5-4-2---4---2---3-2-5-4-|---------2---3-2-5-4-2---4---2---|
|-----------------3-2-0---2-----------3-2-|-----------------3-2-0---2-------|


riff 2
|-----------------------------------|
|-----------------------------------|
|--------------------------4-5---5--|
|--------------------------2-3---3--|
|-522222223222222252222222----------|
|-----------------------------------|


riff 3                  end 1          end 2
|-----------------------|--------------|--------------|
|-----------------------|--------------|--------------|
|-----------------------|--------------|--------------|
|-2---5---4---3---2---5-|--------------|-8--8--8--8---|
|-0---3---2---1---0---3-|-----5-----6--|-6--6--6--6---|
|-----------------------|--00-3--00-4--|--------------|
Tap to rate this tab
# A B C D E F G H I J K L M N O P Q R S T U V W X Y Z