Song name
# A B C D E F G H I J K L M N O P Q R S T U V W X Y Z

Dayglo Abortions - One Cheque From The Street tab

from death race 2000

riff 1
|---------------------------------------------------------------------|
|---------------------------------------------------------------------|
|---------------------------------------------------------------------|
|-65---------------65---------7-----65---------------65---------------|
|---5-65-----9-------5-65-----5-------5-65-----7-------5-65-----9-----|
|-------5-65-7-----------5-65-------------5-65-5-----------5-65-7-----|


riff 2
|-----------------------------------------------------------------------------|
|-----------------------------------------------------------------------------|
|-----------------------------------------------------------------------------|
|-65-----------------65---------7-77-77-65-----------------65-----------------|
|---5-65-----9-99-99---5-65-----5-55-55---5-65-----7-77-77---5-65-----9-99-99-|
|-------5-65-7-77-77------5-65----------------5-65-5-55-55-------5-65-7-77-77-|


riff 3
|----|----------------------------|
|----|----------------------------|
|----|----------------------------|
|109-|-5-77-77--7-7-----------109-|
|-87-|-3-55-55-7575-7-99-999-9-87-|
|----|---------5-5--5-77-777-7----|


riff 4                    end1,3    end 2      end 4
|-------------------------|---------|---------|-----------------------------|
|-------------------------|---------|---------|-----------------------------|
|-------------------------|---------|---------|-----------------------------|
|---------7-77-77-5-55-55-|-4-44-44-|-3-33-33-|-3-33-33------------------2--|
|-2-22-22-5-55-55-3-33-33-|-2-22-22-|-1-11-11-|-1-11-11-0000000000000000-0--|
|-0-00-00-----------------|---------|---------|-----------------------------|


             riff 5
|------------|------------------------------|
|-(fill)-----|------------------------------|
|------------|------------------------------|
|-65---------|------------10-9-5-77-77--7-7-|
|---5-65-----|-7-99-99-9-9-8-7-3-55-55-7575-|
|-------5-65-|-5-77-77-7-7-------------5-5--|


riff 4


riff 6
|----------------------------------------------------------|(fill into riff 5)|
|----------------------------------------------------------|------------------|
|----------------------------------------------------------|------------------|
|-----------7-------------9-------------12-----------------|------------------|
|-----------5-------------7-------------10-----------9-5---|-9-99-99-5-55-55--|
|-5-7-7-7-7-----5-7-7-7-7-----5-7-7-7-7------5-7-7-7-7-3---|-7-77-77-3-33-33--|


riff 5
riff 4

end
|-----|
|-----|
|-----|
|-----|
|-7-9-|
|-5-7-|
Tap to rate this tab
# A B C D E F G H I J K L M N O P Q R S T U V W X Y Z