Song name
# A B C D E F G H I J K L M N O P Q R S T U V W X Y Z

Dayglo Abortions - Marijuanathon tab

from death race 2000

riff 1
|--------------------------------------------------------|
|--------------------------------------------------------|
|--------------------------------------------------------|
|--------------------------------------------------------|
|-555-2--888-2--555-2--888-2--555-8-444-7--555-2--888-2--|
|-333-0--666-0--333-0--666-0--333-6-222-5--333-0--666-0--|


riff 2
|------------------------|
|------------------------|
|------------------------|
|-9------7---------------|
|-7------5------5---6----|
|---------------3---4----|


riff 1
riff 2


riff 3
|-------------------------------------------------------------|
|-------------------------------------------------------------|
|-------------------------------------------------------------|
|-------------------------------------------------------------|
|-5777577757775777--------6--5777577757775777---------8887-77-|
|------------------00003334-------------------000033336665-55-|


riff 4
|--------------------|
|--------------------|
|--------------------|
|--------------------|
|-222--555--888-7-77-|
|-000--333--666-5-55-|


riff 3
riff 4
riff 2
riff 4
riff 2
Tap to rate this tab
# A B C D E F G H I J K L M N O P Q R S T U V W X Y Z