Song name
# A B C D E F G H I J K L M N O P Q R S T U V W X Y Z

Dayglo Abortions - Just Cant Say No To Drugs tab

from death race 2000

intro
|--------|
|--------|
|--------|
|--------|
|-----3--|
|-0-2----|


riff 1
|---------------|------------------|
|---------------|------------------|
|---------------|------------------|
|---------------|------------------|
|-----4-----3---|-54--54--54--54---|
|-0-2---0-2-----|-3222322232223222-|


riff 2
|-------------------|---------------|
|-------------------|---------------|
|-------------------|---------------|
|-------------------|---------------|
|-5--5-555-2--2-222-|-----4-----3---|
|-3--3-333-0--0-000-|-0-2---0-2-----|


riff 3
|-------------------------------------------------|-------------------------------------------------|
|-------------------------------------------------|-------------------------------------------------|
|-------------------------------------------------|-------------------------------------------------|
|-------------------------------------------------|-------------------------------------------------|
|----------------------4-----3--------4-----3-2-0-|---------------7------4-----3--------4-----3-2-0-|
|-3222322232223222-0-2---0-2------0-2---0-2-------|-322232223222325--0-2---0-2------0-2---0-2-------|


riff 4
|--------------------------------|
|--------------------------------|
|--------------------------------|
|--------------------------------|
|-----4-----3--------4-----3-2-0-|
|-0-2---0-2------0-2---0-2-------|


riff 5
|--------------------------------|------------------|------------------|
|--------------------------------|------------------|------------------|
|--------------------------------|------------------|------------------|
|--------------------------------|------------------|------------------|
|-----4-----3--------4-----3-2-0-|-54--54--54--54---|-54--54--54--547--|
|-0-2---0-2------0-2---0-2-------|-3222322232223222-|-322232223222325--|


riff 6
|-------------------|--------------------------------|
|-------------------|--------------------------------|
|-------------------|--------------------------------|
|-------------------|--------------------------------|
|-5--5-555-2--2-222-|-----4-----3--------4-----3-2-0-|
|-3--3-333-0--0-000-|-0-2---0-2------0-2---0-2-------|


end
|---|
|---|
|---|
|---|
|-4-|
|-2-|
Tap to rate this tab
# A B C D E F G H I J K L M N O P Q R S T U V W X Y Z