Song name
# A B C D E F G H I J K L M N O P Q R S T U V W X Y Z

Dayglo Abortions - Euthanasia Day tab

from death race 2000

riff 1
|-------------------------------------------------------|
|-------------------------------------------------------|
|-------------------------------------------------------|
|-------------------------------------------------------|
|-3-3-----3-3-210-3-3-----3-3-210-6---6--210-5---5--210-|
|-1-1-000-1-1-----1-1-000-1-1-----4---4------3---3------|


riff 2
|------------------------------------------------------|(fill)|
|------------------------------------------------------|------|
|-----------5--5-55---------------------------------5--|------|
|-7--7-77-5-3--3-33-5-7--7-77-5---------5-7--7-77-5-3--|------|
|-5--5-55-3---------3-5--5-55-3-3--3-33-3-5--5-55-3----|-210--|
|-------------------------------1--1-11----------------|------|


riff 1
riff 2
fill
riff 1


riff 4
|--------------------------------------------|---------------------|
|--------------------------------------------|---------------------|
|--------------------------------------------|---------------------|
|--------------------------------------------|---------------------|
|-3--2----3--2---2--3---2--3---3--2---2--3---|-210-3-3-----3-3-210-|
|------1-------1------3------3------4------3-|-----1-1-000-1-1-----|
Tap to rate this tab
# A B C D E F G H I J K L M N O P Q R S T U V W X Y Z