Song name
# A B C D E F G H I J K L M N O P Q R S T U V W X Y Z

Dayglo Abortions - Ben Hoffmans Nose tab

from death race 2000

riff 1
|------------------------|
|------------------------|
|------------------------|
|-99----9----------77-9--|
|-77-99-799-99--77-55-7--|
|----77--77-77--55-------|


riff 2
|-----------------------------------|
|-----------------------------------|
|-----------------------------------|
|-99--------7---99-------77-9-99-99-|
|-77-9---77-5---77-9--77-55-7-77-77-|
|----7---55--------7--55------------|


riff 1
riff 2


riff 3
|-------------------------------------------------------------------|
|-------------------------------------------------------------------|
|-------------------------------------------------------------------|
|------------------2-22-22-2-22-----7-77-77-7-77-77-9-99-77-9-99-99-|
|-2-22-22-2-22-----0-00-00-0-00-03^-5-55-55-5-55-55-7-77-55-7-77-77-|
|-0-00-00-0-00-03^--------------------------------------------------|


riff 1
Tap to rate this tab
 
# A B C D E F G H I J K L M N O P Q R S T U V W X Y Z