Song name
# A B C D E F G H I J K L M N O P Q R S T U V W X Y Z

Dayglo Abortions - The Idiot tab

from feed us a fetus

riff 1
|-------------------------|
|-------------------------|
|-------------------------|
|-77----77----------------|
|-55-66-55-6666-6777-6777-|
|----44----4444-4555-4555-|


riff 2
|---------------------|
|---------------------|
|---------------------|
|-7-------------------|
|-5---6---67777-67777-|
|-----4---45555-45555-|
Tap to rate this tab
 
# A B C D E F G H I J K L M N O P Q R S T U V W X Y Z