Song name
# A B C D E F G H I J K L M N O P Q R S T U V W X Y Z

Dayglo Abortions - Stupid World tab

from feed us a fetus

riff 1
|-------------------------------------------------------|
|-------------------------------------------------------|
|-------------------------------------------------------|
|-----------------2-------------------------------------|
|-----4-----5-----------5-----4-------4-----5-----7--7--|
|-0-2---0-2---0-2---0-2---0-2-----0-2---0-2---0-2-5--5--|


riff 2
|-------------------|---------------------|
|-------------------|---------------------|
|-------------------|---------------------|
|-------------------|------------9-10-11--|
|-4444-555555-2244--|-5--2--4----7--8--9--|
|-2222-333333-0022--|-3--0--2-------------|


end
|-------------------------------|
|-------------------------------|
|-------------------------------|
|-------------------------------|
|-----7-7-----7-7-----7-7----4--|
|-000-5-5-000-5-5-000-5-5-00-2--|
Tap to rate this tab
 
# A B C D E F G H I J K L M N O P Q R S T U V W X Y Z