Song name
# A B C D E F G H I J K L M N O P Q R S T U V W X Y Z

Dayglo Abortions - My Girl tab

from feed us a fetus

intro
|-0-----------------------------0-0-0-0----------------------------------|
|-------3-0-----0-----------------------3-0-0-0-0-----0-0-0-0------------|
|--------------------------------------------------------------2---------|
|---------------------5\2~------------------------------------------2~---|
|------------------------------------------------------------------------|
|------------------------------------------------------------------------|


riff 1
|-----------------|------------------|
|-----------------|------------------|
|-----------------|----------------5-|
|-----4---3-33-33-|------7-7--3-3--3-|
|-----2---1-11-11-|-5-5--5-5--1-1----|
|-0-3---3---------|-3-3--------------|


riff 2
|----------------------------------------------------------|
|----------------------------------------------------------|
|----------------------------------------------------------|
|---------7------10---9---7-----10---9---7-----10---9---7--|
|-3---2---5-------8---7---5------8---7---5------8---7---5--|
|-1---0----------------------------------------------------|
Tap to rate this tab
# A B C D E F G H I J K L M N O P Q R S T U V W X Y Z