Song name
# A B C D E F G H I J K L M N O P Q R S T U V W X Y Z

Dayglo Abortions - Kill The Hosers tab

from feed us a fetus

riff 1
|-----------------|
|-----------------|
|-----------------|
|---------------5-|
|-7-7-7777-5-55-3-|
|-5-5-5555-3-33---|


riff 2                gtr 2:
|-------------------|-------------------|-------------------|
|-------------------|-------------------|-------------------|
|-------------------|-2-----0-----------|-2-----5-----9-----|
|-------------9-----|-------------2-----|-------------------|
|-7-----5-----7-----|-------------------|-------------------|
|-5-----3-----------|-------------------|-------------------|


end
|---|
|---|
|-2-|
|---|
|---|
|---|
Tap to rate this tab
# A B C D E F G H I J K L M N O P Q R S T U V W X Y Z