Song name
# A B C D E F G H I J K L M N O P Q R S T U V W X Y Z

Dayglo Abortions - Inside My Head tab

from feed us a fetus

intro
|------------------|
|-(2x, end of 2nd time, strum last chord a few times in addition)
|------------------|
|------10--------9-|
|-99--98----99--97-|
|-77--7-----77--7--|


riff 1
|---------------------|
|---------------------|
|---------------------|
|-----101010-----9999-|
|------8888------7777-|
|-7777------7777------|


riff 2
|-----------------------|
|-----------------------|
|-----------------------|
|------77---------------|
|-999--55-7-------------|
|-777-----5--50-56-5056-|


riff 3
|----------------------------------------------------------------|
|----------------------------------------------------------------|
|----------------------------------------------------------------|
|---------7-77-77--------10-9-8-7---------7-77-77--------10--1010|
|-9-99-99-5-55-55-9-99-99-8-7-6-5-9-99-99-5-55-55-9-99-99-8---88-|
|-7-77-77---------7-77-77---------7-77-77---------7-77-77---0----|


riff 4
|------------------------------------------------------|
|------------------------------------------------------|
|------------------------------------------------------|
|------10------------------------9---------------------|
|-99--98---8-7-6-5-4-3-2-1-0-99-97---0-1-2-3-4-5-6-7-8-|
|-77--7----------------------77-7----------------------|
Tap to rate this tab
 
# A B C D E F G H I J K L M N O P Q R S T U V W X Y Z