Song name
# A B C D E F G H I J K L M N O P Q R S T U V W X Y Z

Dayglo Abortions - I Wanna Be An East Indian tab

from feed us a fetus

intro
|----------|
|----------|
|----------|
|-6/777777-|
|-4/555555-|
|----------|

riff 1
|-----------------|
|-----------------|
|-----------------|
|---------7-77-7--|
|-7-777-7-5-55-5--|
|-5-555-5---------|


riff 2
|---------------------------|
|---------------------------|
|---------------------------|
|------------------77-------|
|-44--7-777--4444--55--7777-|
|-22--5-555--2222------5555-|


fill
|----------|-----------------|
|----------|-----------------|
|----------|-----------------|
|----------|-----------------|
|-6/777777-|-7-777-7-7-77-77-|
|-4/555555-|-5-555-5-5-55-55-|
Tap to rate this tab
# A B C D E F G H I J K L M N O P Q R S T U V W X Y Z