Song name
# A B C D E F G H I J K L M N O P Q R S T U V W X Y Z

Dayglo Abortions - Die Sinner Die tab

from feed us a fetus

riff 1
|------------------------------|
|------------------------------|
|------------------------------|
|--------------------8-8--8-8--|
|--------------------6-6--6-6--|
|-0-3-5-6--5-3-6-5-3-----------|


riff 2
|----------------------------------|
|----------------------------------|
|----------------------------------|
|-1212-----9-99-99---------9-99-99-|
|-1010-9-9-7-77-77-9-9-8-8-7-77-77-|
|------7-7---------7-7-6-6---------|
Tap to rate this tab
# A B C D E F G H I J K L M N O P Q R S T U V W X Y Z