Song name
# A B C D E F G H I J K L M N O P Q R S T U V W X Y Z

Dayglo Abortions - Kill Johnny Stiff tab

from here today guano tomorrow

riff 1
|----------------------------------|----------|
|----------------------------------|----------|
|----------------------------------|----------|
|------------------------10--7--9--|10--7--9--|
|-9-99-99-9-99-99-7-77-77-8--5--7--|-8--5--7--|
|-7-77-77-7-77-77-5-55-55----------|----------|


riff 2
|-----------------------------------|----------|
|-----------------------------------|----------|
|-----------------------------------|----------|
|---------7--9------------10--7--9--|10--7--9--|
|-9-99-99-5--7--8--7-77-77-8--5--7--|-8--5--7--|
|-7-77-77-------6--5-55-55----------|----------|

        
riff 3                         1st end  
|----------------------------|---------------------------------|
|----------------------------|---------------------------------|
|----------------------------|---------------------------------|
|----------------------------|-4-------------------------------|
|-4-44---4-44---4-44---4-44--|-2-2-2-2-2-2-2-2-2-2-2-2-2-2-2-2-|
|-2-22---2-22---2-22---2-22--|---------------------------------|
Tap to rate this tab
# A B C D E F G H I J K L M N O P Q R S T U V W X Y Z