Song name
# A B C D E F G H I J K L M N O P Q R S T U V W X Y Z

Dayglo Abortions - Fuck Satan To Death tab

from here here today guano tomorrow

riff 1
|-------------------------------------------------------|
|-------------------------------------------------------|
|-------------------------------------------------------|
|---------9-------------10--9---------12-10-----7-10----|
|---------7--------------8--7---------10--8-----5--8----|
|-0-0-0-0--------0-0-0-0-------0-0-0-0------------------|


riff 2
|-----------------------------|
|-----------------------------|
|-----------------------------|
|-----5------4-------------3--|
|-----3------2------5------1--|
|-0-0----0-0----0-0-3--0-0----|


riff 3
|-----------------------------------------------|
|-----------------------------------------------|
|---------8--7-----6--5----------8--7-----6-----|
|-9999999-6--5--7--4--3--9999999-6--5--7--4-----|
|-7777777-------5--------7777777-------5--------|
|-----------------------------------------------|


fuck satan to deaaathh!
|--------------|
|--------------|
|--------------|
|---6---5-4----|
|-6-4-6-3-2----|
|-4---4--------|
Tap to rate this tab
# A B C D E F G H I J K L M N O P Q R S T U V W X Y Z