Song name
# A B C D E F G H I J K L M N O P Q R S T U V W X Y Z

Dayglo Abortions - Fuck My Shit Stinks tab

from here today, guano tomorrow

intro
|----------------------------------------------------------|
|----------------------------------------------------------|
|-542------------------------------------------------------|
|----542542---2---542----2---542---2-542----2-542----------|
|----------53-0------543-0------53-0----543-0----543-5-----|
|----------------------------------------------------3-----|


riff 1
|------------------------------------------|
|------------------------------------------|
|------------------------------------------|
|-22---------------------------------------|
|-00-0-3p0--5p0---3p0-5p0-3p0-5p0-3p0-5-5--|
|-------------------------------------3-3--|


riff 2
|------------------------------------------|
|------------------------------------------|
|------------------------------------------|
|-22----------22---------------------------|
|-00--0---3p0-00---3p0--5p0--3p0-5p0-3p0-5-|
|----------------------------------------3-|


riff 3            end 1              end 2     fill
|-----------------|-----------------|----------|--------------|
|-----------------|-----------------|----------|--------------|
|-----------------|-----------------|----------|-542----------|
|-----------------|-----------------|-7--------|----542542----|
|-5-55-55-2-22-22-|-7-77-77-5-4-3---|-5--------|----------543-|
|-3-33-33-0-00-00-|-5-55-55-------3-|----------|--------------|
Tap to rate this tab
# A B C D E F G H I J K L M N O P Q R S T U V W X Y Z