Song name
# A B C D E F G H I J K L M N O P Q R S T U V W X Y Z

Dayglo Abortions - Drugged And Driving tab

from here today, guano tomorrow

Intro
        |----------|---------------------------------|
        |----------|---------------------------------|
        |----------|---------------------------------|    
        |----------|---------------------------------|    
        |----------|-4-----5-----4-----5-----4---4/5-|
        |--2//14\2-|-2-0-0-3-0-0-2-0-0-3-0-0-2-0-2/3-|       
        PM              = =   = =   = =   = =   =

        Chorus
        |---------------------------------------------------------------------------|
        |---------------------------------------------------------------------------|
        |---------------------------------------------------------------------------|    
        |------9------11----11/12----7-----7/9-----9------11----11/12----7-----7/9--|    
        |------7------9------9/10----5-----5/7-----7------9------9/10----5-----5/7--|
        |--0-0------0----0-0-------0---0-0-----0-0------0----0-0-------0---0-0------|
        PM = =      =    = =       =   = =     = =      =    = =       =   = =

        Verse
        |--------------------------------------------------------------------|
        |--------------------------------------------------------------------|
        |------------------------------------------------------------------5-|
        |----------------------------------------------------------------4---| 
        |------------4--4-----------5---5-----------5---5------------3------|
        |--0-0-0-0-0-2--2-0-0-0-0-0-3---3-0-0-0-0-0-2---2-0-0-0-0-2---------|
        PM = = = = =       = = = = =       = = = = =       = = = = 

        Fill
        |---------------------------------------------|
        |---------------------------------------------|
        |---------------------------------------------|    
        |--9-------7-------12-------10-------9--------|    
        |--7-------5-------10-------9--------7--------|
        |---------------------------------------------|

        Quick Section 1
        |--------------------|
        |--------------------|
        |--------------------|
        |--------------------|
        |--------------------|
        |--0000000000000000--|
        PM ================
          
          Quick Section 2
        |------------------------------------------------------------------------|
        |------------------------------------------------------------------------|
        |------------------------------------------------------------------------|  
        |-----------------------------------------------------------------5-4----|    
        |--------------------4-----------------5-----------------4--------3-2-5--|
        |--0-000000000000000-2-000000000000000-3-000000000000000-2-000000-----3--|
        PM   ==============    ==============    ==============    ======
          
        Quick Section 3
        |------------------------------------------------------------------------|
        |------------------------------------------------------------------------|
        |------------------------------------------------------------------------|
        |--------------------4-----------------5-----------------7--------5-4----|
        |--0-000000000000000-2-000000000000000-3-000000000000000-5-000000-3-2-5--|
        |---------------------------------------------------------------------3--|
        PM   ==============    ==============    ==============    ======
          
        Solo Chords
        |------------------------------------------------------------------------|
        |------------------------------------------------------------------------|
        |------------------------------------------------------------------------|
        |------------------------------------------------------------------------|
        |--9-----------------------10---7---9-----------------------10---7-------|
        |--7------------------------8---5---7------------------------8---5-------|
           
Tap to rate this tab
 
# A B C D E F G H I J K L M N O P Q R S T U V W X Y Z