Song name
# A B C D E F G H I J K L M N O P Q R S T U V W X Y Z

Dayglo Abortions - Dragons tab

from here today, guano tomorrow

intro
|----------------------------------------|
|----------------------------------------|
|----------------------------------------|
|----------------------------------------|
|-7-77--75--7-77--75--7-77--75--3--3--3--|
|-5-55--53--5-55--53--5-55--53--1--1--1--|


riff 1
|----------------------------------------------------------------------------|
|----------------------------------------------------------------------------|
|----------------------------------------------------------------------------|
|----------------------------------------5-55--52--5-55--52------------------|
|-7-77--75--7-77--75-3-33--32--3-33--32--3-33--30--3-33--30-5-55--5-5p4--3-2-|
|-5-55--53--5-55--53-1-11--10--1-11--10---------------------3-33--3----------|


riff 2
|------------------------|---------|
|------------------------|---------|
|------------------------|---------|
|------------------------|---------|
|-7-7------------3-33-33-|-5p4-3-2-|
|-5-5------------1-11-11-|---------|
Tap to rate this tab
 
# A B C D E F G H I J K L M N O P Q R S T U V W X Y Z