Song name
# A B C D E F G H I J K L M N O P Q R S T U V W X Y Z

Dayglo Abortions - When The Big Hand Meets The Little Hand tab

from holy shiite

riff 1
|--------------------------------------------|----|
|--------------------------------------------|----|
|--------------------------------------------|-4~-|
|----------3-3--------------------3-34-4-----|----|
|-2-25-54-41-1-2225-5----2-25-54-41-12-25-52-|----|
|-0-03-32-2----0003-32~--0-03-32-2------3-30-|----|


riff 2                                   end 1:        end 2:
|----------------------------------------|-------------|-------------|
|----------------------------------------|-------------|-------------|
|----------------------------------------|-------------|-------------|
|----4-3----------4-3----------4-3-------|-------------|-------------|
|----2-1---4-5----2-1---5-4----2-1---5-4-|-2--------1--|-2--4--5--4--|
|-0-0-----02-3-0-0-----03-2-0-0-----03-2-|-0--2--3-----|-0--2--3--2--|


riff 3                                  end 1:        end 2:        end 3:
|---------------------------------------|-------------|-------------|---------------|
|---------------------------------------|-------------|-------------|---------------|
|---------------------------------------|-------------|-------------|---------------|
|---------------------------------------|-------------|-------------|---------------|
|-2-2----------2-2----------2-2---------|-2--------1--|-2-----------|-2----------7\-|
|-0-0-----00-0-0-0----------0-0---------|-0--2--3-----|-0--2--3--2--|-0-------------|


riff 4
|--------------------------|-------------------------|
|--------------------------|-------------------------|
|--------------------------|-------------------------|
|----4-43-34-43-32-23-32-2-|-------------------------|
|-2-22-21-12-21-10-01-10-0-|-2--4--5--4--2--4--5--4--|
|-0-0----------------------|-0--2--3--2--0--2--3--2--|
Tap to rate this tab
# A B C D E F G H I J K L M N O P Q R S T U V W X Y Z