Song name
# A B C D E F G H I J K L M N O P Q R S T U V W X Y Z

Dayglo Abortions - Vince Neil tab

from holy shiite

riff 1
|----------------------------------|
|----------------------------------|
|----------------------------------|
|-7-77-77-7777-2-4-5-55-55---------|
|-5-55-55-5555-0-2-3-33-33-5-55-55-|
|--------------------------3-33-33-|


riff 2
|-----------------------------------------------------------------|
|-----------------------------------------------------------------|
|-----------------------------------------------------------------|
|-7-77-77-7-77-77-5-55-55-5-55-55-----------------7-77-77-7-77-75-|
|-5-55-55-5-55-55-3-33-33-3-33-33-5-55-55-5-55-55-5-55-55-5-55-53-|
|---------------------------------3-33-33-3-33-33-----------------|


riff 3
|---------------------------------|
|---------------------------------|
|---------------------------------|
|-7-77-77-7-77-77-9-99-99-5-55-55-|
|-5-55-55-5-55-55-7-77-77-3-33-33-|
|---------------------------------|


riff 4
|---------------------------------|
|---------------------------------|
|---------------------------------|
|-----------------9-99-99-5-55-55-|
|-5-55-55-5-55-55-7-77-77-3-33-33-|
|-3-33-33-3-33-33-----------------|

Tap to rate this tab
# A B C D E F G H I J K L M N O P Q R S T U V W X Y Z