Song name
# A B C D E F G H I J K L M N O P Q R S T U V W X Y Z

Dayglo Abortions - My Kingdom On Earth tab

from holy shiite

intro                               fill
|-----------------------------------|---------------------|
|-----------------------------------|---------------------|
|-----------------------------------|---------------------|
|----------------------------6655---|---------------------|
|-577777577777787775777775777----88-|---------------------|
|-----------------------------------|-4310-4310-4310-4310-|


riff 1
|------------------------------------------------------------------------------------|
|------------------------------------------------------------------------------------|
|------------------------------------------------------------------------------------|
|------------------------------------------------------------------------------------|
|------------------------------------------------------------------------------------|
|-0-0-3-0-4-0-3-0-4310-0-0-3-0-4-0-3-0-4310-0-0-3-0-4-0-3-0-4310-4310-4310-4310-4310-|


riff 2
|---------------------------------------------------------------------------------------------|
|---------------------------------------------------------------------------------------------|
|---------------------------------------------------------------------------------------------|
|-------------------------------------------------------------------------------------3-------|
|-2-2--2-2---------------3-3--3-3-----------------6-6--6-6-----------2-2--2-2---------1-----5-|
|-0-0--0-0----00-000---0-1-1--1-1---111-111-111-1-4-4--4-4------44-4-0-0--0-0-----4310--43103-|


end riff
|------------------------------|
|------------------------------|
|------------------------------|
|----------------------3-------|
|----------------------1-----5-|
|-0-00-000-0-00-00-4310--43103-|
Tap to rate this tab
# A B C D E F G H I J K L M N O P Q R S T U V W X Y Z