Song name
# A B C D E F G H I J K L M N O P Q R S T U V W X Y Z

Dayglo Abortions - How Low Will You Go tab

from holy shiite

intro
|-------------------------------------------------------------------------------|
|-------------------------------------------------------------------------------|
|-------------------------------------------------------------------------------|
|----------3-----------------7--------------------------------------------------|
|-2--------1-111111-5--------5-555555-8--------5--------5-----5-----5-----5-----|
|-0-000000----------3-333333----------6-666666-3-333333---3-4---3-4---3-4---3-4-|


riff 1
|-------------------|
|-------------------|
|-------------------|
|------3-3----77-77-|
|-2-2--1-1--5-55-55-|
|-0-0-------3-------|


riff 2                       last time
|----------------------------|---------------------------------------|
|----------------------------|---------------------------------------|
|----------------------------|---------------------------------------|
|-9-9--9---------------------|-9-9--9--------------------------------|
|-7-7--7-8-8--8-5-5--5-5-----|-7-7--7-8-8--8-5-----5-----5-----5-----|
|--------6-6--6-3-3--3---3-4-|--------6-6--6---3-4---3-4---3-4---3-4-|


riff 3                          part 2                            fill
|-------------------------------|---------------------------------|-----|
|-------------------------------|---------------------------------|-----|
|-------------------------------|---------------------------------|-----|
|-------------------------------|-6-66-66-5-5---------------------|-----|
|-5-55-55-6-8-6-5-55-55-5-55-55-|-4-44-44-3-3-8-8-5-55-55-5-55-55-|-6---|
|-3-33-33-4-6-4-3-33-33-3-33-33-|-------------6-6-3-33-33-3-33-33-|-4---|


riff 4
|--------------------------------------------------------------|
|--------------------------------------------------------------|
|--------------------------------------------------------------|
|-------------3----------------3-3----77-77-------3-3----77-77-|
|-2-----------1-----------2-2--1-1--5-55-55--2-2--1-1--5-55-55-|
|-0-----------------------0-0-------3--------0-0-------3-------|
Tap to rate this tab
# A B C D E F G H I J K L M N O P Q R S T U V W X Y Z