Song name
# A B C D E F G H I J K L M N O P Q R S T U V W X Y Z

Dayglo Abortions - Gutter Ball tab

from holy shiite

riff 1
|--------------------------|
|--------------------------|
|--------------------------|
|-----------------5-55-----|
|-6-77-77-6-77-77-3-33-7-6-|
|-4-55-55-4-55-55------5-4-|


riff 2
|--------------------------------|------------------------------|
|--------------------------------|------------------------------|
|--------------------------------|------------------------------|
|-5-55-55-5-55-55-5-55-55-5-5-7--|-5-55-55-5-55-55-5-55-55-88-7-|
|-3-33-33-3-33-33-3-33-33-3-3-5--|-3-33-33-3-33-33-3-33-33-66-5-|
|--------------------------------|------------------------------|


riff 3
|---------------------------------|
|---------------------------------|
|---------------------------------|
|-5-55-55-5-55-55-9-99-99-9-99-99-|
|-3-33-33-3-33-33-7-77-77-7-77-77-|
|---------------------------------|


riff 4
|-------------------------------------------------------------------------------------------------|
|-------------------------------------------------------------------------------------------------|
|-5-55-55-5-55-55-4-44-44-4-44-44---------------------------------5-55-55-5-55-55-4-44-44-4-44-44-|
|-3-33-33-3-33-33-2-22-22-2-22-22-2-22-22-2-22-22-5-55-55-5-55-55-3-33-33-3-33-33-2-22-22-2-22-22-|
|---------------------------------0-00-00-0-00-00-3-33-33-3-33-33---------------------------------|
|-------------------------------------------------------------------------------------------------|
Tap to rate this tab
# A B C D E F G H I J K L M N O P Q R S T U V W X Y Z