Song name
# A B C D E F G H I J K L M N O P Q R S T U V W X Y Z

Dayglo Abortions - Fuck The World If It Cant Take A Joke tab

from holy shiite

TUNING: D Standard

intro
|----------------------------------|
|----------------------------------|
|----------------------------------|
|-------------------------2--2--25-|
|---210--2--2--25----210--0--0--03-|
|-03---3-0--0--03--03---3----------|


riff 1                    end 1         end 2
|-------------------------|-----------|-----------------|
|-------------------------|-----------|-----------------|
|-------------------------|-----------|-----------------|
|-------------------------|-2-------5-|-2-2-222-7-7-777-|
|---210--2-------5---210--|-0--000003-|-0-0-000-5-5-555-|
|-03---3-0--000003-03---3-|-----------|-----------------|


fill
|-------------------------------------------------------|
|-------------------------------------------------------|
|-------------------------------------------------------|
|-9---9-----------------------9---9---9-----------------|
|-7---7-----------------------7---7---7-----------------|
|---------0-0-0-0-0-0-0-0-0-0-----------0-0-0-0-0-0-0-0-|


riff 2
|-------------------------|
|-------------------------|
|---------------7---6---4-|
|-9---99---99---5---4---2-|
|-7---77---77----54--54---|
|-------------------------|


riff 3
|-------------------------------------------------------|
|-------------------------------------------------------|
|---------------------------7--4--4-4-4-4-4-4-7---6---4-|
|-3--3-3-3-3-3-3-3-4-5-6--7-5--2--2-2-2-2-2-2-5---4---2-|
|-1--1-1-1-1-1-1-1-2-3-4--5--------------------54--54---|
|-------------------------------------------------------|


end
|-------------------------|
|-------------------------|
|-7-----6-----7-----4-----|
|-5-----4-----5-----2-----|
|---5-4---5-4-------------|
|-------------------------|
Tap to rate this tab
# A B C D E F G H I J K L M N O P Q R S T U V W X Y Z