Song name
# A B C D E F G H I J K L M N O P Q R S T U V W X Y Z

Dayglo Abortions - Christina Bin Laden tab

from holy shiite

riff 1                                  riff 1 alt:
|-------------------------------------|------------------------------------|
|-------------------------------------|------------------------------------|
|-------------------------------------|------------------------------------|
|-6-666666-9-999999-------------------|6-666666-9-999999----------64444444-|
|-4-444444-7-777777-7-777777-6-666666-|4-444444-7-777777-7-777777-42222222-|
|-------------------5-555555-4-444444-|------------------5-555555----------|


riff 2              end 1                               end 2
|-------------------|-----------------------------------|------------------|
|-------------------|-----------------------------------|------------------|
|-------------------|-6666666666666666-4666666666666666-|-666666666666-----|
|-6-666666-466666-4-|-4444444444444444-2444444444444444-|-444444444444-4-4-|
|-4-444444-244444-2-|-----------------------------------|--------------2-2-|
|-------------------|-----------------------------------|------------------|


riff 3
|--------------------|------------------------|
|--------------------|------------------------|
|--------------------|------------------------|
|--------------------|------------------------|
|-7------9-11--6-----|-7-----------6----------|
|-5------7--9--4-----|-5-----------4----------|
Tap to rate this tab
# A B C D E F G H I J K L M N O P Q R S T U V W X Y Z