Song name
# A B C D E F G H I J K L M N O P Q R S T U V W X Y Z

Dayglo Abortions - America Eats Her Young tab

from holy shiite

riff 1
|----------------|
|----------------|
|----------------|
|----------------|
|-877-8-10--877--|
|-655-6--8--655--|


riff 2
|-------------------------------------|
|-------------------------------------|
|-------------------------------------|
|--------------8----------------------|
|-87777777-777-6-10--8777777777777777-|
|-65555555-555----8--6555555555555555-|


riff 3
|--------------------------------------------|
|--------------------------------------------|
|--------------------------------------------|
|-3-3-333-6-66-666---------------------------|
|-1-1-111-4-44-444-77-------------77---------|
|------------------55-0-3-5-6-5-3-55-0-3-5---|


riff 4
|---------------------|
|---------------------|
|---------------------|
|------8--------------|
|-877--6-10--877------|
|-655-5---8--655--555-|
Tap to rate this tab
 
# A B C D E F G H I J K L M N O P Q R S T U V W X Y Z