Song name
# A B C D E F G H I J K L M N O P Q R S T U V W X Y Z

Dayglo Abortions - Spuds Visitation tab

from little man in the canoe

riff 1
|----------------------------|
|----------------------------|
|-------------4------------4-|
|-----3-----3--------3-------|
|-0-4---0-4------0-4---0-4---|
|----------------------------|


riff 2
|------------------------------|------------------------------|
|------------------------------|------------------------------|
|---------------------------5--|------------------------------|
|-4-2-4-2-4-5-4-2-4-2-4-2-4-3--|-6-4-6-4-6-7-6-4-6-4-6-4-6----|
|-2-0-2-0-2-3-2-0-2-0-2-0-2----|-4-2-4-2-4-5-4-2-4-2-4-2-4-5--|
|------------------------------|---------------------------3--|
Tap to rate this tab
# A B C D E F G H I J K L M N O P Q R S T U V W X Y Z