Song name
# A B C D E F G H I J K L M N O P Q R S T U V W X Y Z

Dayglo Abortions - Open Sore tab

from little man in the canoe

riff 1
|-------------------------------------------------------------------------------------------------|
|-------------------------------------------------------------------------------------------------|
|-2-22-22-----------------------------------------------------------------------------------------|
|-0-00-00-3p0-2p0-4p0-3p0-2-22-22-------------------------6-66-66---------------------------------|
|-------------------------0-00-00-3p0-2p0-4p0-3p0-3-33-33-4-44-44-4p0-5p0-4p0-5p0-4p0-5p0-4p0-5p0-|
|-------------------------------------------------1-11-11-----------------------------------------|


riff 2                                                     end 1      end 2
|----------------------------------------------------------|---------|---------|
|----------------------------------------------------------|---------|---------|
|----------------------------------------------------------|---------|---------|
|----------------------------------6-66-66-6-66-66-6-66-66-|-6-5-4-3-|-6-7-8-9-|
|-33333333333333333333333333333333-4-44-44-4-44-44-4-44-44-|-4-3-2-1-|-4-5-6-7-|
|-11111111111111111111111111111111-------------------------|---------|---------|


riff 3
|-------------------------------------------------------------------|
|-------------------------------------------------------------------|
|-------------------------------------------------------------------|
|---------------5---------------5---------------8----------8-10--8--|
|-222222222222223-222222222222223-555555555555556-55555555-6--8--6--|
|-------------------------------------------------------------------|
Tap to rate this tab
# A B C D E F G H I J K L M N O P Q R S T U V W X Y Z