Song name
# A B C D E F G H I J K L M N O P Q R S T U V W X Y Z

Dayglo Abortions - Nuclear Supremacy tab

from little man in the canoe

intro
|-------------|
|-------------|
|-------------|
|-------------|
|-2--2--2--3--|
|-0--0--0--1--|


riff 1
|---------------|
|---------------|
|---------------|
|---------------|
|-------------3-|
|-0-00-00-00001-|


riff 2
|--------------------------------|
|--------------------------------|
|--------------------------------|
|--------------------------------|
|-5-55-55-5555-5--------------3--|
|-3-33-33-3333-5--0-00-00-00001--|
Tap to rate this tab
 
# A B C D E F G H I J K L M N O P Q R S T U V W X Y Z