Song name
# A B C D E F G H I J K L M N O P Q R S T U V W X Y Z

Dayglo Abortions - Man Bites Dog tab

from little man in the canoe

riff 1
|-----------------------------------------|
|-----------------------------------------|
|-----------------------------------------|
|-----2-4-5-4-2-------7-6-4-6-4-2---------|
|-4-5-0-2-4-2-0-5-4---5-4-2-4-2-0-5-4-5---|
|-2-3-----------3-2---------------3-2-3---|


riff 2
|-----------------|-----------------|
|-----------------|-----------------|
|-----------------|-----------------|
|-7-77-77-7-7-----|-----------------|
|-5-55-55-5-5-5-4-|-------7-77-77-7-|
|-------------3-2-|-0-2-3-5-55-55-5-|


riff 3
|-----------------|-------------------|
|-----------------|-------------------|
|-----------------|-------------------|
|-4-44-4----------|-------------------|
|-2-22-20-5-55-55-|-7-4-44-44-5-4-3-2-|
|---------3-33-33-|-5-2-22-22-3-2-1-0-|


end
|----------|
|----------|
|----------|
|----------|
|-444-2-4--|
|-222-0-2--|

Tap to rate this tab
# A B C D E F G H I J K L M N O P Q R S T U V W X Y Z