Song name
# A B C D E F G H I J K L M N O P Q R S T U V W X Y Z

Dayglo Abortions - Little Man In The Canoe tab

from little man in the canoe

riff 1
|------------------------------------------------|
|------------------------------------------------|
|-----------------------------7-----6------------|
|-------------4---6---7---9---5-----4-----4------|
|-5-----4-----2---4---5---7---------------2------|
|-3-----2----------------------------------------|


riff 2
|----------------------------------|---------------|
|----------------------------------|---------------|
|----------------------------------|---------------|
|-5--------------------------------|---------------|
|-3-44-44-4-44-44-4-44-44-3210-----|-2---5---4-5-4-|
|---22-22-2-22-22-2-22-22-----5430-|-0---3---2-3-2-|


riff 3
|---------------------------------|----------------------------------|
|---------------------------------|----------------------------------|
|---------------------------------|----------------------------------|
|-4-44-44-5-55-55-----------------|-7-77-77-8-88-88-7-77-77-8-10--8--|
|-2-22-22-3-33-33-2-0-------------|-5-55-55-6-66-66-5-55-55-6--8--6--|
|---------------------3-2-0-2-3-5-|----------------------------------|


riff 1                                       fill
|-------------------------------------------|--------------|
|-------------------------------------------|--------------|
|-----------------------------7-----6-------|--------------|
|-------------4---6---7---9---5-----4-----4-|--------------|
|-5-----4-----2---4---5---7---------------2-|--5---4---2---|
|-3-----2-----------------------------------|--3---2---0---|
Tap to rate this tab
# A B C D E F G H I J K L M N O P Q R S T U V W X Y Z