Song name
# A B C D E F G H I J K L M N O P Q R S T U V W X Y Z

Dayglo Abortions - Homophobic Sexist Cokeheads tab

from little man in the canoe

riff 1
|-----------------|-------------|
|-----------------|-------------|
|-----------------|-------------|
|-4-44-44---------|-------------|
|-2-22-22-5-55-55-|-4--5--2--4--|
|---------3-33-33-|-2--3--0--2--|


riff 2
|---------------|-------------|
|---------------|-------------|
|---------------|-------------|
|------77777777-|-------------|
|-6-6--55555555-|-4--5--2--4--|
|-4-4-----------|-2--3--0--2--|


riff 3
|-------------------------------|
|-------------------------------|
|-------------------------------|
|---77-77---77-77---77-77-55-88-|
|-0-55-55-0-55-55-0-55-55-33-66-|
|-------------------------------|


end:
|------------------|
|------------------|
|------------------|
|------------------|
|-4--5--2--3--4----|
|-2--3--0--1--2----|
Tap to rate this tab
 
# A B C D E F G H I J K L M N O P Q R S T U V W X Y Z