Song name
# A B C D E F G H I J K L M N O P Q R S T U V W X Y Z

Dayglo Abortions - Feeder Brigade tab

from little man in the canoe

riff 1
|------------------------------------------------------|
|------------------------------------------------------|
|------------------------------------------------------|
|------------------------------------------2--2--5--5--|
|-4--4p0-1p0---4--4p0-1p0---4--4p0-1p0-----0--0--3--3--|
|-2----------3-2----------3-2----------3p0-------------|


riff 2
|-----------------------------------------------|
|-----------------------------------------------|
|-----------------------------------------------|
|------------------------------------------333--|
|-4--4--5--5--4-44--5--5-4--4--5--5--4-44--111--|
|-2--2--3--3--2-22-03-03-2--2--3--3--2-22-0-----|


riff 3
|---------------------------------------------|
|---------------------------------------------|
|---------------------------------------------|
|-7--5--7\5--8--5--7\5--8--5--7\5--7--5--7\5--|
|-5--3--5\3--6--3--5\3--6--3--5\3--5--3--5\3--|
|---------------------------------------------|
Tap to rate this tab
 
# A B C D E F G H I J K L M N O P Q R S T U V W X Y Z