Song name
# A B C D E F G H I J K L M N O P Q R S T U V W X Y Z

Dayglo Abortions - Casting Couch tab

from little man in the canoe

riff 1
|---------------------------------|
|---------------------------------|
|---------------------------------|
|-9-99-99-7-----------------------|
|-7-77-77-5--8--6-8-88-88-8-88-88-|
|-----------06-04-6-66-66-6-66-66-|


riff 2
|-------------------------------|
|-------------------------------|
|-------------------------------|
|-------------------------------|
|-2--5-8-2--5-8----9-99-9-99-99-|
|-0--3-6-0--3-6----7-77-7-77-77-|


riff 3
|--------|
|--------|
|--------|
|--------|
|-2--5-8-|
|-0--3-6-|


end
|-----|
|-----|
|-----|
|-9---|
|-7---|
|-----|
Tap to rate this tab
# A B C D E F G H I J K L M N O P Q R S T U V W X Y Z