Song name
# A B C D E F G H I J K L M N O P Q R S T U V W X Y Z

Dayglo Abortions - Wasp tab

from two dogs fucking

riff 1                        end 1    end 2
|-----------------------------|-------|-----------------|
|-----------------------------|-------|-----------------|
|-----------------------------|-------|-----------------|
|--------6--7-----------------|-------|-----------------|
|-4------4--5----7--9----2--4-|-------|-6-7-6-7---------|
|-2--------------5--7----0--2-|-------|---------5-7-0-2-|


riff 2
|---------------------------------|
|---------------------------------|
|---------------------------------|
|---------------------------------|
|-4---44--4---44--5---55--5---5-7-|
|-2-0-220-2-0-220-3-0-330-3-0-3-5-|
Tap to rate this tab
 
# A B C D E F G H I J K L M N O P Q R S T U V W X Y Z