Song name
# A B C D E F G H I J K L M N O P Q R S T U V W X Y Z

Dayglo Abortions - Punker Bitches tab

from two dogs fucking

riff 1
|---------------------------------------------------|
|---------------------------------------------------|
|---2p0-----------2p0-----------2p0-----------------|
|-2-----4p0-----2-----4p0-----2-----4p0-----5-5-4-4-|
|-0---------3p0-0---------3p0-0---------3p0-3-3-2-2-|
|---------------------------------------------------|


riff 2
|---------------------------------|
|---------------------------------|
|---------------------------------|
|-----------------5-5-------------|
|-7-77-77-7-77-77-3-3-5-5-7-77-77-|
|-5-55-55-5-55-55-----3-3-5-55-55-|


riff 3
|-----------------------------------------------------------------|
|-----------------------------------------------------------------|
|-----------------------------------------------------------------|
|-----------------------------------------------------------------|
|-3-33-33-3-33-33-5-55-55-5-55-55-7-77-77-7-77-77-7-77-77-7-77-77-|
|-1-11-11-1-11-11-3-33-33-3-33-33-5-55-55-5-55-55-5-55-55-5-55-55-|


riff 4
|--------------------------------------------------------------------|
|--------------------------------------------------------------------|
|--------------------------------------------------------------------|
|--------9-99-99-9-99-99-9-99-991010-7-7-9-99-99-9-99-99-9-99-991010-|
|-2------7-77-77-7-77-77-7-77-77-8-8-5-5-7-77-77-7-77-77-7-77-77-8-8-|
|-0------------------------------------------------------------------|


riff 5
|---------------------------------|
|---------------------------------|
|---------------------------------|
|---------------------------------|
|-7-77-77-7-77-77-7-77-77-5-5-4-4-|
|-5-55-55-5-55-55-5-55-55-3-3-2-2-|
Tap to rate this tab
# A B C D E F G H I J K L M N O P Q R S T U V W X Y Z