Song name
# A B C D E F G H I J K L M N O P Q R S T U V W X Y Z

Dayglo Abortions - My Erection tab

from two dogs fucking

intro
|------------------------------------------|
|------------------------------------------|
|------------------------------------------|
|--------2-------------------2-------------|
|-----1-----2-------------1-----3-2-3------|
|-0-------------1--3--0---------1-0-1---3--|


riff 1
|---------------------------------|-------------------------------|
|---------------------------------|-------------------------------|
|---------------------------------|-------------------------------|
|-----------------3-33-33-3-33-33-|-3p2p0-3--3p2p0-3--3p2p0-3-----|
|-2-22-22-2-22-22-1-11-11-1-11-11-|-------1--------1--------1-----|
|-0-00-00-0-00-00-----------------|-------------------------------|
Tap to rate this tab
# A B C D E F G H I J K L M N O P Q R S T U V W X Y Z