Song name
# A B C D E F G H I J K L M N O P Q R S T U V W X Y Z

Dayglo Abortions - Isnt This Disgusting tab

from two dogs fucking

riff 1
|---------------------------------|---------------------------------|
|---------------------------------|---------------------------------|
|---------------------------------|---------------------------------|
|---------------------------------|---------------------------------|
|-333-222-333-666-333-222-333-986-|---------------------------------|
|-111-000-111-444-111-000-111-764-|-333-111-333-444-333-111-333-666-|


riff 2
|-------------|---------------|-----------------|
|-------------|---------------|-----------------|
|-------------|---------------|-----------------|
|-------------|---------------|-----------------|
|-----2-----1-|-----2-----1-2-|-----2-----1-2-3-|
|-0-3---0-3---|-0-3---0-3---0-|-0-3---0-3---0-1-|


riff 3
|------------------------------|-------------------|
|------------------------------|-------------------|
|------------------------------|-------------------|
|------------------------------|-------------------|
|-----2-----1-----2------------|-3---6---9---66-55-|
|-0-3---0-3---0-3---0-3-4--0-1-|-1---4---7---44-33-|
Tap to rate this tab
 
# A B C D E F G H I J K L M N O P Q R S T U V W X Y Z