Song name
# A B C D E F G H I J K L M N O P Q R S T U V W X Y Z

Dayglo Abortions - I Do The Best That I Can tab

from two dogs fucking

riff 1
|-----------------|
|-----------------|
|-----------------|
|-----------------|
|---2-1-----------|
|-0-----0-5-3-2-1-|


riff 2                                          fill
|------------------------|---------------------|---------|
|------------------------|---------------------|---------|
|------------------------|---------------------|---------|
|-------9----9-----------|---------------------|-----5-7-|
|-2-----7----7----8--8---|-2---5---7----7/8-8--|-7-8-3-5-|
|-0--00----0-6--0-6--6---|-0---3---5---05/6-6--|-5-6-----|
Tap to rate this tab
 
# A B C D E F G H I J K L M N O P Q R S T U V W X Y Z