Song name
# A B C D E F G H I J K L M N O P Q R S T U V W X Y Z

Dayglo Abortions - Courage In A Can tab

from two dogs fucking

intro
|-----------------------------|
|-----------------------------|
|-----------------------------|
|-----------------------------|
|-6------3------2-------------|
|-4------1------0-------------|


riff 1
|------------------------------------------------------------|
|------------------------------------------------------------|
|------------------------------------------------------------|
|------------------------------------------------------------|
|-----3-----5-----6-----5---------3-----5-----6-----5--6-5-6-|
|-0-0-1-0-0-3-0-0-4-0-0-3-----0-0-1-0-0-3-0-0-4-0-0-3--4-3-4-|


riff 2
|---------------------------------------------------------------|
|---------------------------------------------------------------|
|---------------------------------------------------------------|
|---------------------------------------------------------------|
|-------------5--------------5----------6\5-----3/5---------3---|
|-0-0-0-0-0-0-3--0-0-0-0-0-0-3--0-0-0-0-4\3-0-0-1/3-0-0-0-0-1---|
Tap to rate this tab
# A B C D E F G H I J K L M N O P Q R S T U V W X Y Z